ISO-10303-21;
HEADER;
FILE_DESCRIPTION (( 'STEP AP203' ),
    '1' );
FILE_NAME ('BK7-BSC-25.4-650-900.STEP',
    '2020-12-22T03:18:43',
    ( '' ),
    ( '' ),
    'SwSTEP 2.0',
    'SolidWorks 2020',
    '' );
FILE_SCHEMA (( 'CONFIG_CONTROL_DESIGN' ));
ENDSEC;

DATA;
#1 = AXIS2_PLACEMENT_3D ( 'NONE', #251, #163, #231 ) ;
#2 = PLANE ( 'NONE',  #143 ) ;
#3 = ORIENTED_EDGE ( 'NONE', *, *, #81, .F. ) ;
#4 = CC_DESIGN_PERSON_AND_ORGANIZATION_ASSIGNMENT ( #137, #35, ( #42 ) ) ;
#5 = APPROVAL_STATUS ( 'not_yet_approved' ) ;
#6 = ORIENTED_EDGE ( 'NONE', *, *, #40, .T. ) ;
#7 = COORDINATED_UNIVERSAL_TIME_OFFSET ( 8, 0, .AHEAD. ) ;
#8 = AXIS2_PLACEMENT_3D ( 'NONE', #299, #274, #87 ) ;
#9 = ORIENTED_EDGE ( 'NONE', *, *, #61, .F. ) ;
#10 = CARTESIAN_POINT ( 'NONE',  ( -12.69999999999999574, -12.69999999999999396, 12.69999999999999929 ) ) ;
#11 = LINE ( 'NONE', #270, #214 ) ;
#12 = DATE_AND_TIME ( #39, #90 ) ;
#13 = DIRECTION ( 'NONE',  ( 0.000000000000000000, 0.000000000000000000, 1.000000000000000000 ) ) ;
#14 = EDGE_CURVE ( 'NONE', #47, #176, #311, .T. ) ;
#15 = CARTESIAN_POINT ( 'NONE',  ( -12.69999999999999751, -12.69999999999999929, 12.69999999999999929 ) ) ;
#16 = CC_DESIGN_PERSON_AND_ORGANIZATION_ASSIGNMENT ( #141, #37, ( #33 ) ) ;
#17 = EDGE_CURVE ( 'NONE', #150, #312, #200, .T. ) ;
#18 = VECTOR ( 'NONE', #253, 1000.000000000000000 ) ;
#19 = DIRECTION ( 'NONE',  ( 0.7071067811865475727, 0.7071067811865475727, 0.000000000000000000 ) ) ;
#20 = APPROVAL ( #165, 'UNSPECIFIED' ) ;
#21 = ORIENTED_EDGE ( 'NONE', *, *, #303, .T. ) ;
#22 = LINE ( 'NONE', #321, #268 ) ;
#23 = PERSON ( 'UNSPECIFIED', 'UNSPECIFIED', 'UNSPECIFIED', ('UNSPECIFIED'), ('UNSPECIFIED'), ('UNSPECIFIED') ) ;
#24 = CARTESIAN_POINT ( 'NONE',  ( -12.69999999999999751, -12.69999999999999929, -12.69999999999999929 ) ) ;
#25 = PLANE ( 'NONE',  #202 ) ;
#26 = APPROVAL_PERSON_ORGANIZATION ( #254, #20, #259 ) ;
#27 = CARTESIAN_POINT ( 'NONE',  ( -12.69999999999999751, -12.69999999999999929, 12.69999999999999929 ) ) ;
#28 = VECTOR ( 'NONE', #123, 1000.000000000000000 ) ;
#29 = DIRECTION ( 'NONE',  ( 1.000000000000000000, 0.000000000000000000, 0.000000000000000000 ) ) ;
#30 = DIRECTION ( 'NONE',  ( -0.7071067811865475727, -0.7071067811865475727, 0.000000000000000000 ) ) ;
#31 = CARTESIAN_POINT ( 'NONE',  ( -12.69999999999999574, -12.69999999999999396, 12.69999999999999929 ) ) ;
#32 = CARTESIAN_POINT ( 'NONE',  ( 12.69999999999999574, 12.69999999999999574, -12.69999999999999929 ) ) ;
#33 = PRODUCT_DEFINITION_FORMATION_WITH_SPECIFIED_SOURCE ( 'ANY', '', #308, .NOT_KNOWN. ) ;
#34 = ORIENTED_EDGE ( 'NONE', *, *, #61, .T. ) ;
#35 = PERSON_AND_ORGANIZATION_ROLE ( 'creator' ) ;
#36 = COORDINATED_UNIVERSAL_TIME_OFFSET ( 8, 0, .AHEAD. ) ;
#37 = PERSON_AND_ORGANIZATION_ROLE ( 'creator' ) ;
#38 = ORIENTED_EDGE ( 'NONE', *, *, #145, .T. ) ;
#39 = CALENDAR_DATE ( 2020, 22, 12 ) ;
#40 = EDGE_CURVE ( 'NONE', #313, #65, #52, .T. ) ;
#41 = EDGE_LOOP ( 'NONE', ( #62, #151, #149, #193 ) ) ;
#42 = PRODUCT_DEFINITION ( 'UNKNOWN', '', #33, #261 ) ;
#43 = ADVANCED_BREP_SHAPE_REPRESENTATION ( 'BK7-BSC-25.4-650-900', ( #94, #296, #63 ), #199 ) ;
#44 = CARTESIAN_POINT ( 'NONE',  ( 12.69999999999999574, 12.69999999999999574, -12.69999999999999929 ) ) ;
#45 = COORDINATED_UNIVERSAL_TIME_OFFSET ( 8, 0, .AHEAD. ) ;
#46 = LOCAL_TIME ( 11, 18, 43.00000000000000000, #234 ) ;
#47 = VERTEX_POINT ( 'NONE', #157 ) ;
#48 = APPLICATION_CONTEXT ( 'configuration controlled 3d designs of mechanical parts and assemblies' ) ;
#49 = EDGE_CURVE ( 'NONE', #312, #210, #73, .T. ) ;
#50 = AXIS2_PLACEMENT_3D ( 'NONE', #127, #124, #29 ) ;
#51 = CARTESIAN_POINT ( 'NONE',  ( 12.69999999999999574, 12.69999999999999574, 12.69999999999999929 ) ) ;
#52 = LINE ( 'NONE', #15, #306 ) ;
#53 = LINE ( 'NONE', #156, #195 ) ;
#54 = DIRECTION ( 'NONE',  ( 1.000000000000000000, 0.000000000000000000, 0.000000000000000000 ) ) ;
#55 = FACE_OUTER_BOUND ( 'NONE', #168, .T. ) ;
#56 = FACE_OUTER_BOUND ( 'NONE', #74, .T. ) ;
#57 = APPROVAL_PERSON_ORGANIZATION ( #280, #300, #257 ) ;
#58 = LOCAL_TIME ( 11, 18, 43.00000000000000000, #7 ) ;
#59 = LINE ( 'NONE', #207, #64 ) ;
#60 = CARTESIAN_POINT ( 'NONE',  ( -12.69999999999999574, -12.69999999999999396, 12.69999999999999929 ) ) ;
#61 = EDGE_CURVE ( 'NONE', #169, #255, #122, .T. ) ;
#62 = ORIENTED_EDGE ( 'NONE', *, *, #211, .F. ) ;
#63 = AXIS2_PLACEMENT_3D ( 'NONE', #186, #238, #241 ) ;
#64 = VECTOR ( 'NONE', #125, 1000.000000000000000 ) ;
#65 = VERTEX_POINT ( 'NONE', #221 ) ;
#66 = ORIENTED_EDGE ( 'NONE', *, *, #138, .T. ) ;
#67 = PERSON_AND_ORGANIZATION ( #23, #182 ) ;
#68 = ORIENTED_EDGE ( 'NONE', *, *, #236, .T. ) ;
#69 = DIRECTION ( 'NONE',  ( -0.000000000000000000, 0.000000000000000000, 1.000000000000000000 ) ) ;
#70 = DATE_TIME_ROLE ( 'classification_date' ) ;
#71 = PRODUCT_DEFINITION_SHAPE ( 'NONE', 'NONE',  #42 ) ;
#72 = AXIS2_PLACEMENT_3D ( 'NONE', #10, #265, #13 ) ;
#73 = LINE ( 'NONE', #243, #262 ) ;
#74 = EDGE_LOOP ( 'NONE', ( #34, #284, #191, #223 ) ) ;
#75 = AXIS2_PLACEMENT_3D ( 'NONE', #78, #273, #19 ) ;
#76 = ADVANCED_FACE ( 'NONE', ( #287 ), #217, .F. ) ;
#77 = EDGE_LOOP ( 'NONE', ( #136, #79, #119 ) ) ;
#78 = CARTESIAN_POINT ( 'NONE',  ( 12.69999999999999574, 12.69999999999999574, 12.69999999999999929 ) ) ;
#79 = ORIENTED_EDGE ( 'NONE', *, *, #314, .F. ) ;
#80 = CARTESIAN_POINT ( 'NONE',  ( 12.69999999999999929, -12.69999999999999929, -12.69999999999999929 ) ) ;
#81 = EDGE_CURVE ( 'NONE', #65, #47, #11, .T. ) ;
#82 = LINE ( 'NONE', #230, #279 ) ;
#83 = LINE ( 'NONE', #51, #233 ) ;
#84 = ADVANCED_FACE ( 'NONE', ( #171 ), #155, .F. ) ;
#85 = LINE ( 'NONE', #181, #110 ) ;
#86 = CARTESIAN_POINT ( 'NONE',  ( -12.69999999999999751, -12.69999999999999929, 12.69999999999999929 ) ) ;
#87 = DIRECTION ( 'NONE',  ( 0.7071067811865474617, 0.7071067811865474617, 0.000000000000000000 ) ) ;
#88 = CALENDAR_DATE ( 2020, 22, 12 ) ;
#89 = DIRECTION ( 'NONE',  ( 0.000000000000000000, 0.000000000000000000, -1.000000000000000000 ) ) ;
#90 = LOCAL_TIME ( 11, 18, 43.00000000000000000, #45 ) ;
#91 = MECHANICAL_CONTEXT ( 'NONE', #245, 'mechanical' ) ;
#92 = CALENDAR_DATE ( 2020, 22, 12 ) ;
#93 = EDGE_LOOP ( 'NONE', ( #237, #218, #9 ) ) ;
#94 = MANIFOLD_SOLID_BREP ( 'Í¹Ì¨-À', #235 ) ;
#95 = ORIENTED_EDGE ( 'NONE', *, *, #266, .T. ) ;
#96 = CALENDAR_DATE ( 2020, 22, 12 ) ;
#97 = DIRECTION ( 'NONE',  ( -0.000000000000000000, -0.000000000000000000, -1.000000000000000000 ) ) ;
#98 = AXIS2_PLACEMENT_3D ( 'NONE', #196, #69, #309 ) ;
#99 = CARTESIAN_POINT ( 'NONE',  ( -12.69999999999999751, -12.69999999999999929, -12.69999999999999929 ) ) ;
#100 = ORIENTED_EDGE ( 'NONE', *, *, #81, .T. ) ;
#101 = LINE ( 'NONE', #224, #153 ) ;
#102 = LINE ( 'NONE', #179, #256 ) ;
#103 = LINE ( 'NONE', #252, #170 ) ;
#104 = CC_DESIGN_PERSON_AND_ORGANIZATION_ASSIGNMENT ( #147, #260, ( #159 ) ) ;
#105 = CARTESIAN_POINT ( 'NONE',  ( -12.70000000000000284, 12.70000000000000284, 12.69999999999999929 ) ) ;
#106 =( NAMED_UNIT ( * ) SI_UNIT ( $, .STERADIAN. ) SOLID_ANGLE_UNIT ( ) );
#107 = ADVANCED_FACE ( 'NONE', ( #316 ), #209, .F. ) ;
#108 = FACE_OUTER_BOUND ( 'NONE', #114, .T. ) ;
#109 = DIRECTION ( 'NONE',  ( -0.7071067811865474617, -0.7071067811865474617, 0.000000000000000000 ) ) ;
#110 = VECTOR ( 'NONE', #161, 1000.000000000000000 ) ;
#111 = ORIENTED_EDGE ( 'NONE', *, *, #14, .F. ) ;
#112 = APPLICATION_PROTOCOL_DEFINITION ( 'international standard', 'config_control_design', 1994, #48 ) ;
#113 = CC_DESIGN_APPROVAL ( #20, ( #33 ) ) ;
#114 = EDGE_LOOP ( 'NONE', ( #263, #203, #304 ) ) ;
#115 = CC_DESIGN_PERSON_AND_ORGANIZATION_ASSIGNMENT ( #239, #184, ( #308 ) ) ;
#116 = UNCERTAINTY_MEASURE_WITH_UNIT (LENGTH_MEASURE( 1.000000000000000082E-05 ), #226, 'distance_accuracy_value', 'NONE');
#117 = EDGE_LOOP ( 'NONE', ( #142, #272, #258, #240 ) ) ;
#118 = DIRECTION ( 'NONE',  ( -2.220446049250312588E-16, 1.000000000000000000, 0.000000000000000000 ) ) ;
#119 = ORIENTED_EDGE ( 'NONE', *, *, #232, .F. ) ;
#120 = PERSON_AND_ORGANIZATION ( #23, #182 ) ;
#121 = CLOSED_SHELL ( 'NONE', ( #283, #84, #162, #242, #215 ) ) ;
#122 = LINE ( 'NONE', #99, #28 ) ;
#123 = DIRECTION ( 'NONE',  ( 1.000000000000000000, 0.000000000000000000, 0.000000000000000000 ) ) ;
#124 = DIRECTION ( 'NONE',  ( -0.000000000000000000, 0.000000000000000000, 1.000000000000000000 ) ) ;
#125 = DIRECTION ( 'NONE',  ( 0.000000000000000000, 0.000000000000000000, -1.000000000000000000 ) ) ;
#126 = EDGE_CURVE ( 'NONE', #212, #150, #59, .T. ) ;
#127 = CARTESIAN_POINT ( 'NONE',  ( 0.000000000000000000, 0.000000000000000000, 12.69999999999999929 ) ) ;
#128 = VECTOR ( 'NONE', #173, 999.9999999999998863 ) ;
#129 = CARTESIAN_POINT ( 'NONE',  ( 12.69999999999999929, 12.69999999999999929, 12.69999999999999929 ) ) ;
#130 = CARTESIAN_POINT ( 'NONE',  ( -12.70000000000000284, 12.70000000000000284, -12.69999999999999929 ) ) ;
#131 = FACE_OUTER_BOUND ( 'NONE', #77, .T. ) ;
#132 = ADVANCED_FACE ( 'NONE', ( #56 ), #2, .F. ) ;
#133 = CARTESIAN_POINT ( 'NONE',  ( 0.000000000000000000, 0.000000000000000000, -12.69999999999999929 ) ) ;
#134 = DATE_AND_TIME ( #88, #46 ) ;
#135 = LOCAL_TIME ( 11, 18, 43.00000000000000000, #36 ) ;
#136 = ORIENTED_EDGE ( 'NONE', *, *, #192, .F. ) ;
#137 = PERSON_AND_ORGANIZATION ( #23, #182 ) ;
#138 = EDGE_CURVE ( 'NONE', #178, #312, #82, .T. ) ;
#139 = CALENDAR_DATE ( 2020, 22, 12 ) ;
#140 = ORIENTED_EDGE ( 'NONE', *, *, #232, .T. ) ;
#141 = PERSON_AND_ORGANIZATION ( #23, #182 ) ;
#142 = ORIENTED_EDGE ( 'NONE', *, *, #315, .T. ) ;
#143 = AXIS2_PLACEMENT_3D ( 'NONE', #27, #318, #227 ) ;
#144 = APPROVAL_DATE_TIME ( #12, #148 ) ;
#145 = EDGE_CURVE ( 'NONE', #197, #210, #158, .T. ) ;
#146 = ORIENTED_EDGE ( 'NONE', *, *, #126, .F. ) ;
#147 = PERSON_AND_ORGANIZATION ( #23, #182 ) ;
#148 = APPROVAL ( #5, 'UNSPECIFIED' ) ;
#149 = ORIENTED_EDGE ( 'NONE', *, *, #314, .T. ) ;
#150 = VERTEX_POINT ( 'NONE', #183 ) ;
#151 = ORIENTED_EDGE ( 'NONE', *, *, #145, .F. ) ;
#152 = VECTOR ( 'NONE', #185, 1000.000000000000000 ) ;
#153 = VECTOR ( 'NONE', #180, 1000.000000000000000 ) ;
#154 = APPLICATION_PROTOCOL_DEFINITION ( 'international standard', 'config_control_design', 1994, #245 ) ;
#155 = PLANE ( 'NONE',  #72 ) ;
#156 = CARTESIAN_POINT ( 'NONE',  ( 12.69999999999999929, 12.69999999999999929, 12.69999999999999929 ) ) ;
#157 = CARTESIAN_POINT ( 'NONE',  ( 12.69999999999999929, 12.69999999999999929, 12.69999999999999929 ) ) ;
#158 = LINE ( 'NONE', #105, #152 ) ;
#159 = SECURITY_CLASSIFICATION ( '', '', #190 ) ;
#160 =( NAMED_UNIT ( * ) PLANE_ANGLE_UNIT ( ) SI_UNIT ( $, .RADIAN. ) );
#161 = DIRECTION ( 'NONE',  ( -0.000000000000000000, -0.000000000000000000, -1.000000000000000000 ) ) ;
#162 = ADVANCED_FACE ( 'NONE', ( #250 ), #206, .F. ) ;
#163 = DIRECTION ( 'NONE',  ( 0.000000000000000000, 0.000000000000000000, 1.000000000000000000 ) ) ;
#164 = CC_DESIGN_DATE_AND_TIME_ASSIGNMENT ( #194, #70, ( #159 ) ) ;
#165 = APPROVAL_STATUS ( 'not_yet_approved' ) ;
#166 = EDGE_LOOP ( 'NONE', ( #220, #188, #140, #38 ) ) ;
#167 = APPROVAL_DATE_TIME ( #189, #20 ) ;
#168 = EDGE_LOOP ( 'NONE', ( #95, #6, #100 ) ) ;
#169 = VERTEX_POINT ( 'NONE', #24 ) ;
#170 = VECTOR ( 'NONE', #30, 999.9999999999998863 ) ;
#171 = FACE_OUTER_BOUND ( 'NONE', #166, .T. ) ;
#172 = PERSON_AND_ORGANIZATION_ROLE ( 'design_supplier' ) ;
#173 = DIRECTION ( 'NONE',  ( -0.7071067811865475727, -0.7071067811865475727, 0.000000000000000000 ) ) ;
#174 = EDGE_CURVE ( 'NONE', #313, #169, #85, .T. ) ;
#175 = DIRECTION ( 'NONE',  ( -1.000000000000000000, 0.000000000000000000, 0.000000000000000000 ) ) ;
#176 = VERTEX_POINT ( 'NONE', #225 ) ;
#177 = LINE ( 'NONE', #31, #219 ) ;
#178 = VERTEX_POINT ( 'NONE', #60 ) ;
#179 = CARTESIAN_POINT ( 'NONE',  ( 12.69999999999999929, 12.69999999999999929, -12.69999999999999929 ) ) ;
#180 = DIRECTION ( 'NONE',  ( -0.000000000000000000, -0.000000000000000000, -1.000000000000000000 ) ) ;
#181 = CARTESIAN_POINT ( 'NONE',  ( -12.69999999999999751, -12.69999999999999929, 12.69999999999999929 ) ) ;
#182 = ORGANIZATION ( 'UNSPECIFIED', 'UNSPECIFIED', '' ) ;
#183 = CARTESIAN_POINT ( 'NONE',  ( 12.69999999999999574, 12.69999999999999574, -12.69999999999999929 ) ) ;
#184 = PERSON_AND_ORGANIZATION_ROLE ( 'design_owner' ) ;
#185 = DIRECTION ( 'NONE',  ( 0.000000000000000000, 0.000000000000000000, -1.000000000000000000 ) ) ;
#186 = CARTESIAN_POINT ( 'NONE',  ( 0.000000000000000000, 0.000000000000000000, 0.000000000000000000 ) ) ;
#187 = DATE_AND_TIME ( #92, #289 ) ;
#188 = ORIENTED_EDGE ( 'NONE', *, *, #138, .F. ) ;
#189 = DATE_AND_TIME ( #139, #135 ) ;
#190 = SECURITY_CLASSIFICATION_LEVEL ( 'unclassified' ) ;
#191 = ORIENTED_EDGE ( 'NONE', *, *, #40, .F. ) ;
#192 = EDGE_CURVE ( 'NONE', #212, #178, #103, .T. ) ;
#193 = ORIENTED_EDGE ( 'NONE', *, *, #126, .T. ) ;
#194 = DATE_AND_TIME ( #96, #58 ) ;
#195 = VECTOR ( 'NONE', #208, 1000.000000000000114 ) ;
#196 = CARTESIAN_POINT ( 'NONE',  ( 0.000000000000000000, 0.000000000000000000, -12.69999999999999929 ) ) ;
#197 = VERTEX_POINT ( 'NONE', #205 ) ;
#198 = PRODUCT_RELATED_PRODUCT_CATEGORY ( 'detail', '', ( #308 ) ) ;
#199 =( GEOMETRIC_REPRESENTATION_CONTEXT ( 3 ) GLOBAL_UNCERTAINTY_ASSIGNED_CONTEXT ( ( #116 ) ) GLOBAL_UNIT_ASSIGNED_CONTEXT ( ( #226, #160, #106 ) ) REPRESENTATION_CONTEXT ( 'NONE', 'WORKASPACE' ) );
#200 = LINE ( 'NONE', #44, #128 ) ;
#201 = DIRECTION ( 'NONE',  ( -2.220446049250312588E-16, 1.000000000000000000, 0.000000000000000000 ) ) ;
#202 = AXIS2_PLACEMENT_3D ( 'NONE', #129, #175, #319 ) ;
#203 = ORIENTED_EDGE ( 'NONE', *, *, #49, .T. ) ;
#204 = DIRECTION ( 'NONE',  ( -2.220446049250312588E-16, 1.000000000000000000, 0.000000000000000000 ) ) ;
#205 = CARTESIAN_POINT ( 'NONE',  ( -12.70000000000000284, 12.70000000000000284, 12.69999999999999929 ) ) ;
#206 = PLANE ( 'NONE',  #298 ) ;
#207 = CARTESIAN_POINT ( 'NONE',  ( 12.69999999999999574, 12.69999999999999574, 12.69999999999999929 ) ) ;
#208 = DIRECTION ( 'NONE',  ( -0.7071067811865474617, -0.7071067811865474617, 0.000000000000000000 ) ) ;
#209 = PLANE ( 'NONE',  #8 ) ;
#210 = VERTEX_POINT ( 'NONE', #130 ) ;
#211 = EDGE_CURVE ( 'NONE', #210, #150, #292, .T. ) ;
#212 = VERTEX_POINT ( 'NONE', #320 ) ;
#213 = APPROVAL_DATE_TIME ( #134, #300 ) ;
#214 = VECTOR ( 'NONE', #286, 1000.000000000000000 ) ;
#215 = ADVANCED_FACE ( 'NONE', ( #108 ), #297, .F. ) ;
#216 = CC_DESIGN_SECURITY_CLASSIFICATION ( #159, ( #33 ) ) ;
#217 = PLANE ( 'NONE',  #98 ) ;
#218 = ORIENTED_EDGE ( 'NONE', *, *, #303, .F. ) ;
#219 = VECTOR ( 'NONE', #201, 1000.000000000000000 ) ;
#220 = ORIENTED_EDGE ( 'NONE', *, *, #49, .F. ) ;
#221 = CARTESIAN_POINT ( 'NONE',  ( 12.69999999999999929, -12.69999999999999929, 12.69999999999999929 ) ) ;
#222 = PLANE ( 'NONE',  #75 ) ;
#223 = ORIENTED_EDGE ( 'NONE', *, *, #174, .T. ) ;
#224 = CARTESIAN_POINT ( 'NONE',  ( 12.69999999999999929, -12.69999999999999929, 12.69999999999999929 ) ) ;
#225 = CARTESIAN_POINT ( 'NONE',  ( 12.69999999999999929, 12.69999999999999929, -12.69999999999999929 ) ) ;
#226 =( LENGTH_UNIT ( ) NAMED_UNIT ( * ) SI_UNIT ( .MILLI., .METRE. ) );
#227 = DIRECTION ( 'NONE',  ( 0.000000000000000000, -0.000000000000000000, 1.000000000000000000 ) ) ;
#228 = DIRECTION ( 'NONE',  ( 1.000000000000000000, -2.220446049250312588E-16, 0.000000000000000000 ) ) ;
#229 = CC_DESIGN_DATE_AND_TIME_ASSIGNMENT ( #187, #278, ( #42 ) ) ;
#230 = CARTESIAN_POINT ( 'NONE',  ( -12.69999999999999574, -12.69999999999999396, 12.69999999999999929 ) ) ;
#231 = DIRECTION ( 'NONE',  ( -2.220446049250312588E-16, 1.000000000000000000, 0.000000000000000000 ) ) ;
#232 = EDGE_CURVE ( 'NONE', #178, #197, #177, .T. ) ;
#233 = VECTOR ( 'NONE', #228, 1000.000000000000000 ) ;
#234 = COORDINATED_UNIVERSAL_TIME_OFFSET ( 8, 0, .AHEAD. ) ;
#235 = CLOSED_SHELL ( 'NONE', ( #107, #132, #264, #310, #76 ) ) ;
#236 = EDGE_CURVE ( 'NONE', #65, #255, #101, .T. ) ;
#237 = ORIENTED_EDGE ( 'NONE', *, *, #315, .F. ) ;
#238 = DIRECTION ( 'NONE',  ( 0.000000000000000000, 0.000000000000000000, 1.000000000000000000 ) ) ;
#239 = PERSON_AND_ORGANIZATION ( #23, #182 ) ;
#240 = ORIENTED_EDGE ( 'NONE', *, *, #14, .T. ) ;
#241 = DIRECTION ( 'NONE',  ( 1.000000000000000000, 0.000000000000000000, 0.000000000000000000 ) ) ;
#242 = ADVANCED_FACE ( 'NONE', ( #131 ), #249, .T. ) ;
#243 = CARTESIAN_POINT ( 'NONE',  ( -12.69999999999999574, -12.69999999999999396, -12.69999999999999929 ) ) ;
#244 = APPROVAL_ROLE ( '' ) ;
#245 = APPLICATION_CONTEXT ( 'configuration controlled 3d designs of mechanical parts and assemblies' ) ;
#246 = CARTESIAN_POINT ( 'NONE',  ( 12.69999999999999929, 12.69999999999999929, 12.69999999999999929 ) ) ;
#247 = AXIS2_PLACEMENT_3D ( 'NONE', #133, #271, #204 ) ;
#248 = ORIENTED_EDGE ( 'NONE', *, *, #17, .F. ) ;
#249 = PLANE ( 'NONE',  #1 ) ;
#250 = FACE_OUTER_BOUND ( 'NONE', #41, .T. ) ;
#251 = CARTESIAN_POINT ( 'NONE',  ( 0.000000000000000000, 0.000000000000000000, 12.69999999999999929 ) ) ;
#252 = CARTESIAN_POINT ( 'NONE',  ( 12.69999999999999574, 12.69999999999999574, 12.69999999999999929 ) ) ;
#253 = DIRECTION ( 'NONE',  ( 1.000000000000000000, -2.220446049250312588E-16, 0.000000000000000000 ) ) ;
#254 = PERSON_AND_ORGANIZATION ( #23, #182 ) ;
#255 = VERTEX_POINT ( 'NONE', #80 ) ;
#256 = VECTOR ( 'NONE', #109, 1000.000000000000114 ) ;
#257 = APPROVAL_ROLE ( '' ) ;
#258 = ORIENTED_EDGE ( 'NONE', *, *, #266, .F. ) ;
#259 = APPROVAL_ROLE ( '' ) ;
#260 = PERSON_AND_ORGANIZATION_ROLE ( 'classification_officer' ) ;
#261 = DESIGN_CONTEXT ( 'detailed design', #48, 'design' ) ;
#262 = VECTOR ( 'NONE', #118, 1000.000000000000000 ) ;
#263 = ORIENTED_EDGE ( 'NONE', *, *, #17, .T. ) ;
#264 = ADVANCED_FACE ( 'NONE', ( #288 ), #25, .F. ) ;
#265 = DIRECTION ( 'NONE',  ( 1.000000000000000000, -2.220446049250312588E-16, 0.000000000000000000 ) ) ;
#266 = EDGE_CURVE ( 'NONE', #47, #313, #53, .T. ) ;
#267 = ORIENTED_EDGE ( 'NONE', *, *, #192, .T. ) ;
#268 = VECTOR ( 'NONE', #269, 1000.000000000000000 ) ;
#269 = DIRECTION ( 'NONE',  ( -0.000000000000000000, 1.000000000000000000, -0.000000000000000000 ) ) ;
#270 = CARTESIAN_POINT ( 'NONE',  ( 12.69999999999999929, 12.69999999999999929, 12.69999999999999929 ) ) ;
#271 = DIRECTION ( 'NONE',  ( 0.000000000000000000, 0.000000000000000000, 1.000000000000000000 ) ) ;
#272 = ORIENTED_EDGE ( 'NONE', *, *, #174, .F. ) ;
#273 = DIRECTION ( 'NONE',  ( -0.7071067811865475727, 0.7071067811865475727, 0.000000000000000000 ) ) ;
#274 = DIRECTION ( 'NONE',  ( 0.7071067811865475727, -0.7071067811865475727, 0.000000000000000000 ) ) ;
#275 = FACE_OUTER_BOUND ( 'NONE', #307, .T. ) ;
#276 = DIRECTION ( 'NONE',  ( 2.220446049250312588E-16, -1.000000000000000000, 0.000000000000000000 ) ) ;
#277 = DIRECTION ( 'NONE',  ( 0.000000000000000000, 0.000000000000000000, 1.000000000000000000 ) ) ;
#278 = DATE_TIME_ROLE ( 'creation_date' ) ;
#279 = VECTOR ( 'NONE', #89, 1000.000000000000000 ) ;
#280 = PERSON_AND_ORGANIZATION ( #23, #182 ) ;
#281 = CC_DESIGN_PERSON_AND_ORGANIZATION_ASSIGNMENT ( #120, #172, ( #33 ) ) ;
#282 = APPROVAL_PERSON_ORGANIZATION ( #67, #148, #244 ) ;
#283 = ADVANCED_FACE ( 'NONE', ( #275 ), #222, .F. ) ;
#284 = ORIENTED_EDGE ( 'NONE', *, *, #236, .F. ) ;
#285 = CC_DESIGN_APPROVAL ( #300, ( #42 ) ) ;
#286 = DIRECTION ( 'NONE',  ( -0.000000000000000000, 1.000000000000000000, -0.000000000000000000 ) ) ;
#287 = FACE_OUTER_BOUND ( 'NONE', #93, .T. ) ;
#288 = FACE_OUTER_BOUND ( 'NONE', #290, .T. ) ;
#289 = LOCAL_TIME ( 11, 18, 43.00000000000000000, #302 ) ;
#290 = EDGE_LOOP ( 'NONE', ( #21, #111, #3, #68 ) ) ;
#291 = VECTOR ( 'NONE', #97, 1000.000000000000000 ) ;
#292 = LINE ( 'NONE', #32, #18 ) ;
#293 = CC_DESIGN_APPROVAL ( #148, ( #159 ) ) ;
#294 = PLANE ( 'NONE',  #50 ) ;
#295 = CARTESIAN_POINT ( 'NONE',  ( 12.69999999999999574, 12.69999999999999574, 12.69999999999999929 ) ) ;
#296 = MANIFOLD_SOLID_BREP ( '¾µÏ', #121 ) ;
#297 = PLANE ( 'NONE',  #247 ) ;
#298 = AXIS2_PLACEMENT_3D ( 'NONE', #295, #276, #277 ) ;
#299 = CARTESIAN_POINT ( 'NONE',  ( 12.69999999999999929, 12.69999999999999929, 12.69999999999999929 ) ) ;
#300 = APPROVAL ( #301, 'UNSPECIFIED' ) ;
#301 = APPROVAL_STATUS ( 'not_yet_approved' ) ;
#302 = COORDINATED_UNIVERSAL_TIME_OFFSET ( 8, 0, .AHEAD. ) ;
#303 = EDGE_CURVE ( 'NONE', #255, #176, #22, .T. ) ;
#304 = ORIENTED_EDGE ( 'NONE', *, *, #211, .T. ) ;
#305 = SHAPE_DEFINITION_REPRESENTATION ( #71, #43 ) ;
#306 = VECTOR ( 'NONE', #54, 1000.000000000000000 ) ;
#307 = EDGE_LOOP ( 'NONE', ( #248, #146, #267, #66 ) ) ;
#308 = PRODUCT ( 'BK7-BSC-25.4-650-900', 'BK7-BSC-25.4-650-900', '', ( #91 ) ) ;
#309 = DIRECTION ( 'NONE',  ( 1.000000000000000000, 0.000000000000000000, 0.000000000000000000 ) ) ;
#310 = ADVANCED_FACE ( 'NONE', ( #55 ), #294, .T. ) ;
#311 = LINE ( 'NONE', #246, #291 ) ;
#312 = VERTEX_POINT ( 'NONE', #317 ) ;
#313 = VERTEX_POINT ( 'NONE', #86 ) ;
#314 = EDGE_CURVE ( 'NONE', #197, #212, #83, .T. ) ;
#315 = EDGE_CURVE ( 'NONE', #176, #169, #102, .T. ) ;
#316 = FACE_OUTER_BOUND ( 'NONE', #117, .T. ) ;
#317 = CARTESIAN_POINT ( 'NONE',  ( -12.69999999999999574, -12.69999999999999396, -12.69999999999999929 ) ) ;
#318 = DIRECTION ( 'NONE',  ( 0.000000000000000000, 1.000000000000000000, 0.000000000000000000 ) ) ;
#319 = DIRECTION ( 'NONE',  ( 0.000000000000000000, 0.000000000000000000, 1.000000000000000000 ) ) ;
#320 = CARTESIAN_POINT ( 'NONE',  ( 12.69999999999999574, 12.69999999999999574, 12.69999999999999929 ) ) ;
#321 = CARTESIAN_POINT ( 'NONE',  ( 12.69999999999999929, 12.69999999999999929, -12.69999999999999929 ) ) ;
ENDSEC;
END-ISO-10303-21;
